首页     商品     英文     音乐实验室
首页  |  音乐专辑  |  歌曲名称  |  生平  |  图片  |  论坛(英)  |  商品(英)  |  链接(英)

Mamma Mia (ABBA)
Abba
歌曲介绍  |  歌词  |  吉他乐谱  |  乐谱

吉他乐谱

Intro:

E ----5---5---5---5---6---6---6---6---5---5---5---5---6---6---6---6
B -----------------------------------------------------------------
G --7---7---7---7---7---7---7---7---7---7---7---7---7---7---7---7--
D -----------------------------------------------------------------
A -----------------------------------------------------------------
E -----------------------------------------------------------------

  Play above twice.  On second pass, see below.

E ------------------------------------------------------------------
B --------7-------------7-5-7-575---------7-------------7-5-7-575---
G ----4-7-------------------------7---4-7-------------------------7-
D --7-------------------------------7-------------------------------
A ------------------------------------------------------------------
E ------------------------------------------------------------------

---  incidental stuff ---

Lick #1:        Lick #2

E -----------   -----------
B --7-5^5/10-   --7-5^7/11-
G -----------   -----------
D -----------   -----------
A -----------   -----------
E -----------   -----------

Lick #3:     slow vibrato      Lick #4  v---- Bend note, strike it, release
E ----------------------------     ---(14)12------------
B --3--5--7--7(8)7(8)7(8)7(8)-     ----------15-14-12---
G ----------------------------     ---------------------
D ----------------------------     ---------------------
A ----------------------------     ---------------------
E ----------------------------     ---------------------

Dmin#5:

E -2-
B -3-
G -3-
D -0-
A ---
E ---

(ABBA)
 
Abba-Story - English - 中文

Designed by Muzilab™ Entertainement © 2012

page served in 0.009s